Make your own free website on Tripod.com

BLEED TO LOVE HER
written by Lindsey Buckingham
performed by Fleetwood Mac
from the album The Dance
transcribed by Joshua Shank

Tuning = Eb Ab Db Gb Bb eb 
(tune all strings down one half step)

eb|-----5-----5---5-|-----5-----5---4-|
Bb|-----------------|-----------------|
Gb|---2-----2-------|---2-----2-------|
Db|-----------------|-----------------|
Ab|-0-----0-----0---|-0-----0-----0---|
Eb|-----------------|-----------------|

eb|-----4-----4---2-|-----2-----2---0-|
Bb|-----------------|-----------------|
Gb|---2-----2-------|---1-----1-------|
Db|-0-----0-----0---|-2-----2-----2---|
Ab|-----------------|-----------------|
Eb|-----------------|-----------------|

eb|-----0-----0---0-|-----0-----0----0-|
Bb|-----------------|------------------|
Gb|---2-----2-------|---2-----2--------|
Db|-----------------|------------------|
Ab|-0-----0-----0---|-4-----4-----4----|
Eb|-----------------|------------------|

eb|-----0-----0-----|-----0-----0---0-|
Bb|-----------------|-----------------|
Gb|---2-----2-------|---1-----1-------| repeat the 
Db|-0-----0---------|-----------------| whole thing
Ab|-------------4/2-|-----------------|
Eb|-----------------|-0-----0-----0---|

CHORUS riff:
eb|---------------------------------|
Bb|-----2-----0---2-----2-----0---2-|
Gb|---2-----2---------2-----2-------|
Db|---------------------------------|
Ab|-0-----0-----0---0-----0-----0---|
Eb|---------------------------------|

eb|-------------------------------|
Bb|-----2-----0---0-----2---0h2-0-|
Gb|---2-----2---------2---2-------|
Db|-0-----0-----0-----------------|
Ab|-------------------------------|
Eb|-----------------0-------------|

the last time before the verse or bridge starts up:
|---------------|
|---0-2-0-0-0---|
|-2-----------2-|
|---------------|
|---------------|
|---------------|

this is the chord that Lindsey strums during the bridge:
|---0---|
|---5---|
|---4---|
|---x---|
|---x---|
|---x---|

Lyrics:

VERSE 1:
Once again she steals away 
Then she reaches out to kiss me
And how she takes my breath away
Pretending that she won't miss me

CHORUS:
Oohh I would bleed to love her
Bleed to love her
Oohh I would bleed to love her

VERSE 2:
And once again she calls to me
Then she vanishes in thin air
And how she takes my breath away
Pretending that she's not there

CHORUS:

BRIDGE:
Somebody's got to see this through
All the world is laughing at you
Somebody's got to sacrifice
If this whole thing's going to turn out right

CHORUS: